Age of empires 3 ~ Echange de stratégies
Bienvenue sur l'EDS, un forum d'échange de stratégies qui compte aujourd'hui plus de 1000 membres. En t'inscrivant ici tu auras accès à toutes les stratégies, aux conseils des membres , aux astuces pour apprendre à jouer, à t'améliorer, etc...

Tu peux très bien t'inscrire juste pour voir les stratégies (c'est le cas de beaucoup de membres) mais tu peux aussi aller de présenter et participer à la vie du forum qui est devenu une vraie communauté.

Le staff de l'EDS.

Age of empires 3 ~ Echange de stratégies

Forum de stratégies pour Age of Empires 3 depuis 2009
 
AccueilPortailS'enregistrerConnexion

Partagez | 
 

 Aide pour la guitare

Voir le sujet précédent Voir le sujet suivant Aller en bas 
AuteurMessage
Opala
Officier
Officier



MessageSujet: Aide pour la guitare   Dim 6 Juin - 11:39

Yo.
J'ai du mal pour jouer "Can't stop" des Red' Hot' à la guitare (le solo au début, qui en soi est assez simple) J'arrive pas à déplacer mes doigts assez vite, y'a des astuces à savoir pour ce morceau ?

Voilà les tablatures pour les amateurs.

Accordage normal

Intro :
-------

A|-5-7-5-7-5-7-5-7-5-7-5-7-|

Riff 1 :
--------

G|--7-9-----7-9-----7-9------7-9-----7-9-------7-9-------7-9--------7-9-----|
D|--------------------------------------------------------------------------|
A|-7---7-7-7---7-7-5----5-5-5---5-5-----------------------------------------|
E|----------------------------------7----7-7-7-----7-7-8------8-8-8-----8-8-|

Riff 2:
-------

E|-3-3-3-3------|
B|-0-0-2-2------|
G|-0-0-3-3-3-3-4|
D|-0-0-0-0-4-4-5|
A|-2-2-0-0-4-4-5|
E|-3-3-----2-2-3|

_________________________
Revenir en haut Aller en bas
 
Aide pour la guitare
Voir le sujet précédent Voir le sujet suivant Revenir en haut 
Page 1 sur 1
 Sujets similaires
-
» Aide pour les noobs
» [ Maraudon ] Une aide pour un pauvre nain :p
» Demande d'aide pour le controle
» Aide pour pandawa eau
» Aide pour création d'un tournoi

Permission de ce forum:Vous ne pouvez pas répondre aux sujets dans ce forum
Age of empires 3 ~ Echange de stratégies :: Autres :: Corbeille-
Sauter vers: